My Soul`s Among The Lions

My Soul`s Among The Lions

Postprzez brakprzypisanejnazwy » 10 lis 2014, o 00:05

Witam, wiem że płyta niedawno wyszła, ale czy może ktoś posiada chwyty do tego kawałka? :)
Z góry dzięki :D
brakprzypisanejnazwy
 
Posty: 7
Dołączył(a): 26 lis 2010, o 20:14
Lokalizacja: Gdańsk

Re: My Soul`s Among The Lions

Postprzez petlica » 17 lis 2014, o 21:54

Spisałem z grubsza, ilość uderzeń raczej na wyczucie. Może da się rozszyfrować :)
Kod: Zaznacz cały
Acid Drinkers - My Soul's Among The Lions
strój drop-C

Intro
Riff A
|-2---2---2-2--2--3--0--|-2---2---2-2---3/5-5-5--3-|
|-3---3---3-3--3--5--3--|-3---3---3-3---5/7-7-7--5-|
|-2---2---2-2--2--4--5--|-2---2---2-2---4/6-6-6--4-|
|-0---0---0-0--0--0--5--|-0---0---0-0---0-----0--0-|
|-0------------------0--|-0------------------------|
|-----------------------|--------------------------|


|-2---2---2-2--2--3--0--|-2---2---2-2---2-2---2--2-|
|-3---3---3-3--3--5--3--|-3---3---3-3---3-3---3--3-|
|-2---2---2-2--2--4--5--|-2---2---2-2---2-2---2--2-|
|-0---0---0-0--0--0--5--|-0---0---0-0---0-0---0--0-|
|-0------------------0--|-0------------------------|
|-----------------------|--------------------------|


Riff B

|-14-14-14-14---10---12----8---10---7-|--8--8--8--8---5---7---3/5-5-5--3-|
|-15-15-15-15---12---13---10---12---8-|-10-10-10-10---7---8---5/7-7-7--5-|
|-14-14-14-14---11---12----9---11---7-|--9--9--9--9---6---7---4/6-6-6--4-|
|--0--0--0--0----0----0----0----0---0-|--0--0--0--0---0---0---0-----0--0-|
|-------------------------------------|----------------------------------|
|-------------------------------------|----------------------------------|




|-2---2---2-2--2--3--0--|-2---2---2-2---2-2---2--2-|
|-3---3---3-3--3--5--3--|-3---3---3-3---3-3---3--3-|
|-2---2---2-2--2--4--5--|-2---2---2-2---2-2---2--2-|
|-0---0---0-0--0--0--5--|-0---0---0-0---0-0---0--0-|
|-0------------------0--|-0------------------------|
|-----------------------|--------------------------|


|-14-14-14-14---10---12----8---10---7-|--8--8--8--8---5---7---3/5-5-5--3-|
|-15-15-15-15---12---13---10---12---8-|-10-10-10-10---7---8---5/7-7-7--5-|
|-14-14-14-14---11---12----9---11---7-|--9--9--9--9---6---7---4/6-6-6--4-|
|--0--0--0--0----0----0----0----0---0-|--0--0--0--0---0---0---0-----0--0-|
|-------------------------------------|----------------------------------|
|-------------------------------------|----------------------------------|




|-2---2---2-2-------------|-2---2---2-2-------------|
|-3---3---3-3---1-1-1-1-1-|-3---3---3-3---1-1-1-1-1-|
|-2---2---2-2---0-0-0-0-0-|-2---2---2-2---0-0-0-0-0-|
|-0---0---0-0---0-0-0-0-0-|-0---0---0-0---0-0-0-0-0-|
|-0-----------------------|-0-----------------------|
|-------------------------|-------------------------|


|-0---0---0---0---|-0---0-0-0----0--|-----------------|-------0---------|
|-1---1---1---1---|-1---1-1-1/3--3--|-----------------|-----3---3-------|
|-2---2---2---2---|-2---2-2-2/4--4--|-----------------|---4-------4-----|
|-3---3---3---3---|-3---3-3-3/5--5--|-----------------|-5-----------5---|
|-----------------|-----------------|-----------------|-----------------|
|-----------------|-----------------|-----------------|-----------------|

                                                                      x2
|-------2---------|-------0---------|-------2---------|-------0---------|
|-----3---3-------|-----1-1---------|-----3---3-------|-----1-1---------|
|---2-------2-----|---2---2---------|---2-------2-----|---2---2---------|
|-0-----------0-2-|-3-----3---------|-0-----------0-2-|-3-----3---------|
|-----------------|-----------------|-----------------|-----------------|
|-----------------|-----------------|-----------------|-----------------|

Verse

|-------2---------|-------0---------|-------2---------|-------0---------|
|-----3---3-------|-----1-1---------|-----3---3-------|-----1-1---------|
|---2-------2-----|---2---2---------|---2-------2-----|---2---2---------|
|-0-----------0-2-|-3-----3---------|-0-----------0-2-|-3-----3---------|
|-----------------|-----------------|-----------------|-----------------|
|-----------------|-----------------|-----------------|-----------------|

|-------2---------|-------0---------|-------2---------|-------0---------|
|-----3---3-------|-----1-1---------|-----3---3-------|-----1-1---------|
|---2-------2-----|---2---2---------|---2-------2-----|---0---0---------|
|-0-----------0-2-|-3-----3---------|-0-----------0-2-|-3-----3---------|
|-----------------|-----------------|-----------------|-----------------|
|-----------------|-----------------|-----------------|-----------------|


Verse 2                                                               x2
|-------2---------|-------0---------|-------2---------|-------0---------|
|-----3---3-------|-----1-1---------|-----3---3-------|-----1-1---------|
|---2-------2-----|---2---2---------|---2-------2-----|---2---2---------|
|-0-----------0-2-|-3-----3---------|-0-----------0-2-|-3-----3---------|
|-----------------|-----------------|-----------------|-----------------|
|-----------------|-----------------|-----------------|-----------------|


 Pre-Chorus                                                           x2
|-------2---------|-------3---------|-------3---------|-------3---------|
|-----3---3-------|-----3---3-------|-----3---3-------|-----3---3-------|
|---2-------2---2-|---3-------3-----|---2-------2-----|---0-------0-----|
|-0-----------0---|-0-----------0-2-|-3-----------3-0-|-2-----------3-2-|
|-----------------|-----------------|-----------------|-----------------|
|-----------------|-----------------|-----------------|-----------------|

Chorus                                                                x3
|-------0---------|-------0---------|-------0---------|-------0---------|
|-----1---1-------|-----3---3-------|-----4---4-------|-----4---4-------|
|---2-------2---2-|---4-------4---4-|---6-------6---6-|---6-------6-----|
|-3-----------3---|-5-----------5---|-7-----------7---|-7-----------7-5-|
|-----------------|-----------------|-----------------|-----------------|
|-----------------|-----------------|-----------------|-----------------|


|-------0---------|-------0---------|-----------------|-----------------|
|-----1---1-------|-----3---3-------|-5-5-5-5-5-5-5-5-|-5-5-5-5---------|
|---2-------2---2-|---4-------4---4-|-6-6-6-6-6-6-6-6-|-6-6-6-6-2-------|
|-3-----------3---|-5-----------5---|-7-7-7-7-7-7-7-7-|-7-7-7-7-0-------|
|-----------------|-----------------|-----------------|---------0-------|
|-----------------|-----------------|-----------------|---------0-------|

Riff B


Chorus 2

|-0-----0---0-0---|-0-----0---0-0---|-----------------|-----------------|
|-1-----1---1-1---|-3-----3---3-3---|-5-5-5-5-5-5-5-5-|-5-5---5---3-----|
|-2-----2---2-2---|-4-----4---4-4---|-6-6-6-6-6-6-6-6-|-6-6---6---4-----|
|-3-----3---3-3---|-5-----5---5-5---|-7-7-7-7-7-7-7-7-|-7-7---7---5-----|
|-----------------|-----------------|-----------------|-----------------|
|-----------------|-----------------|-----------------|-----------------|

                                                                      x2
|-0-----0---0-0---|-0-----0---0-0---|-0--0-----0---0--|-0--0----0--0-0--|
|-1-----1---1-1---|-3-----3---3-3---|-5--5-----8---8--|-7--7----3--3-3--|
|-2-----2---2-2---|-4-----4---4-4---|-6--6-----9---9--|-8--8----4--4-4--|
|-3-----3---3-3---|-5-----5---5-5---|-7--7----10--10--|-9--9----5--5-5--|
|-----------------|-----------------|-0--0-----0---0--|-0--0----0--0-0--|
|-----------------|-----------------|-----------------|-----------------|




|-0-----0---0-0---|-0---------------|
|-1-----1---1-1---|-3---------------|
|-2-----2---2-2---|-4---------------|
|-3-----3---3-3---|-5---------------|
|-----------------|-----------------|
|-----------------|-----------------|


pozdr
petlica
petlica
 
Posty: 100
Dołączył(a): 5 kwi 2009, o 10:35
Lokalizacja: Krk

Re: My Soul`s Among The Lions

Postprzez brakprzypisanejnazwy » 18 lis 2014, o 20:38

Dzięki :D Jesteś mistrzem! :D
brakprzypisanejnazwy
 
Posty: 7
Dołączył(a): 26 lis 2010, o 20:14
Lokalizacja: Gdańsk

Re: My Soul`s Among The Lions

Postprzez petlica » 19 lis 2014, o 09:51

Dorzucę jeszcze jedno opracowanko. W sumie można by założyć nowy dział na tą płytę.
Kod: Zaznacz cały
Acid Drinkers - 25 Cents For A Riff
strój drop-C

  Bas - Riff A
F|-5h7-------7-----7-|-5h7-------5-----5-|-5h7-------7-----7-|-5h7-------5-----5-|
C|---------4---4-5---|---------2---2-3---|---------4---4-5---|---------2---2-3---|
G|-----5-------------|-----5-------------|-----5-------------|-----5-------------|
C|-------0-----------|-------0-----------|-------0-----------|-------0-----------|


  Gtr-Intro
D|-------------------|-------------------|-------------------|-------------------|
A|-------------------|-------------------|-------------------|-------------------|
F|-------------------|-------------------|-------------------|-------------------|
C|-0-----------------|-------------------|-0-----------------|-------------------|
G|-0-----------------|-------------------|-0-----------------|-------------------|
C|-0-----------------|-------------------|-0-----------------|-------------------|



D|-------------------|-------------------|-------------------|-------------------|
A|-------------------|-------------------|-------------------|-------------------|
F|-------------------|-------------------|-------------------|-------------------|
C|-0-----------------|---------5----3----|-0-----------------|-------------------|
G|-0-----------------|---------5----3----|-0-----------------|-------------------|
C|-0-----------------|---------5----3----|-0-----------------|-------------------|


D|-----------------|-----------------|-----------------|-----------------|
A|-----------------|-----------------|-----------------|-----------------|
F|-----------------|-----------------|-----------------|-----------------|
C|-----------------|-----------------|-----------------|-----------------|
G|-----------------|-----------------|-----------------|-----------------|
C|-0-0-0-0-0-0-0-0-|-0-0-0-0-0-0-0-0-|-0-0-0-0-0-0-0-0-|-0-0-0-0-0-0-0-0-|



  Riff B                                                                                      x2
D|---------------------|---------------------|---------------------|----------------------------|
A|---------------------|---------------------|---------------------|----------------------------|
F|---------------------|---------------------|---------------------|----------------------------|
C|---------------------|---------------------|---------------------|----------------------------|
G|-----------5-5-5-5-5-|-----------3-3-3-3-3-|-----------5-5-5-5-5-|----------------------------|
C|-0-0-0--0--4-4-5-5-5-|-0-0-0--0--2-2-3-3-3-|-0-0-0--0--4-4-5-5-5-|-0-0-0--0-0-0--0-0-0--0-0-0-|


  Verse                                                                                       x2
D|--------------------------|--------------------------|--------------------------|-------------|
A|--------------------------|--------------------------|--------------------------|-------------|
F|--------------------------|--------------------------|--------------------------|-------------|
C|--------------------------|--------------------------|--------------------------|----3--------|
G|-3/5--------------------0-|-3/5--------------------0-|-3/5----------------------|-/5------3---|
C|-3/5-0--0-0-0--0--0--0--0-|-3/5-0--0-0-0--0--0--0--0-|-3/5-0--0-0-0--0--0--0--0-|-------------|


  Pre-Chorus
D|-------------------------------|---------------------------------|
A|-------------------------------|---------------------------------|
F|-------------------------------|---------------------------------|
C|-3-----------------------------|---------------------------------|
G|-3-----------6-------6-------1-|--3-------------6-------6--------|
C|-3--3-3-3-3--6--3-3--6--3-3--1-|--3--3-3-3-3-3--6--3-3--6--3-3-3-|


D|----------------|-------------------|----------------|----------------------------|
A|----------------|-------------------|----------------|----------------------------|
F|----------------|-------------------|----------------|----------------------------|
C|----------------|-------------------|----------------|----------------------------|
G|-1-----1-----1--|-----------1----1--|-3-----3-----3--|----------------------------|
C|-1-----0-----1--|-----------0----1--|-3-----2-----3--|-3-3-3--3-3-3--3-3-3--3-3-3-|

  Chorus
D|-----------|--------|-----------|--------|------------|-----------------|
A|-----------|--------|-----------|--------|------------|-----------------|
F|-----------|--------|-----------|--------|------------|-----------------|
C|-----------|--------|-----------|--------|------------|-----------------|
G|-0------5--|-3------|-0------6--|-5------|-0-------6--|--5---3---5----6-|
C|-0------5--|-3------|-0------6--|-5------|-0-------6--|--5---3---5----6-|


D|------------------|-----------------|
A|------------------|-----------------|
F|------------------|-----------------|
C|-7/---------------|-----------------|
G|-5/---------------|-----------------|
C|----0-0-0-0-0-0-0-|-0-0-0-0-0-0-0-0-|



  Solo-Background
D|-----------------|-----------------|-----------------|----------------|
A|-----------------|-----------------|-----------------|----------------|
F|-----------------|-----------------|-----------------|----------------|
C|-----------------|-----------------|-----------------|----------------|
G|-2-------------2-|-0-2-----------2-|-0-2-------------|-----5----------|
C|-2-2-2-2-2-2-2-2-|-0-2-2-2-2-2-2-2-|-0-2-2-2-2-2-2-2-|-/9--------7----|

D|-----------------|-----------------|-----------------|----------------|
A|-----------------|-----------------|-----------------|----------------|
F|-----------------|-----------------|-----------------|----------------|
C|-----------------|-----------------|-----------------|----------------|
G|-7-2-----------2-|-0-2-----------2-|-0-2-------------|-----5----------|
C|-7-2-2-2-2-2-2-2-|-0-2-2-2-2-2-2-2-|-0-2-2-2-2-2-2-2-|-/9--------7----|


D|-------------------------------|---------------------------------|
A|-------------------------------|---------------------------------|
F|-------------------------------|---------------------------------|
C|-5-----------------------------|---------------------------------|
G|-5-----------8-------8-------3-|--5-------------8-------8--------|
C|-5--5-5-5-5--8--5-5--8--5-5--3-|--5--5-5-5-5-5--8--5-5--8--5-5-5-|


D|----------------|-------------------|----------------|--------|
A|----------------|-------------------|----------------|--------|
F|----------------|-------------------|----------------|--------|
C|----------------|-------------------|----------------|--------|
G|-3-----3-----3--|-----------3----3--|-5-----5-----5--|-5------|
C|-3-----2-----3--|-----------2----3--|-5-----4-----5--|-5------|


D|-----------|--------|-----------|--------|-------------|--------------------|
A|-----------|--------|-----------|--------|-------------|--------------------|
F|-2---------|--------|-2---------|--------|-------------|--------------------|
C|-2------7--|-5------|-2------8--|-7------|-2------8----|-7----5-----7-----8-|
G|-0------5--|-3------|-0------6--|-5------|-0------6----|-5----3-----5-----6-|
C|-----------|--------|-----------|--------|-------------|--------------------|


D|---------------------------------|---------------------------------|
A|---------------------------------|---------------------------------|
F|-2-------------------------------|---------------------------------|
C|-2-------------------------------|---------------------------------|
G|-0---0---0---0---0---0---0---0---|-0---0---0---0---0---0---0---0---|
C|---------------------------------|---------------------------------|



pozdr
petlica
 
Posty: 100
Dołączył(a): 5 kwi 2009, o 10:35
Lokalizacja: Krk

Re: My Soul`s Among The Lions

Postprzez brakprzypisanejnazwy » 19 lis 2014, o 20:10

Dzięki! Właśnie teraz zauważyłem ile jeszcze mam do nauki jeżeli chodzi o ogarnięcie piosenek ze słuchu ;)
brakprzypisanejnazwy
 
Posty: 7
Dołączył(a): 26 lis 2010, o 20:14
Lokalizacja: Gdańsk

Re: My Soul`s Among The Lions

Postprzez petlica » 24 lis 2014, o 15:12

Dorzucam
Kod: Zaznacz cały
Acid Drinkers - Me
drop C

  Riff A
D|------------------------|------------------------|------------------------|------------------------|
A|------------------------|------------------------|------------------------|------------------------|
F|------------------------|------------------------|------------------------|------------------------|
C|------------------------|------------------------|------------------------|------------------------|
G|-/5-2-2---/5-2-2--0-2-0-|-/5-2-2---/5-2-2--0-2-0-|-/5-2-2---/5-2-2--0-2-0-|-/5-2-2---/5-2-2--0-2-0-|
C|-/5-2-2-0-/5-2-2--0-2-0-|-/5-2-2-0-/5-2-2--0-2-0-|-/5-2-2-0-/5-2-2--0-2-0-|-/5-2-2-0-/5-2-2--0-2-0-|
         pm         pm...         pm         pm...          pm         pm...         pm         pm...


  Lick 1
D|------------------------|------------------------|------------------------|------------------------|
A|------------------------|------------------------|------------------------|------------------------|
F|------------------------|------------------------|------------------------|------------------------|
C|---5----9-8~------------|------------------------|-5---7-5~---------------|------------------------|
G|-7---7------------------|------------------------|---7--------------------|------------------------|
C|------------------------|------------------------|------------------------|------------------------|



  Verse                                                                                            x2
D|------------------------|-0----------------------|------------------------|------------------------|
A|------------------------|-3----------------------|------------------------|------------------------|
F|------------------------|-2----------------------|------------------------|------------------------|
C|-0----------------------|-0----------------------|------------------------|------------------------|
G|-0----------------------|--------------5----5----|-/5-2-2---/5-2-2--0-2-0-|-/5-2-2---/5-2-2--0-2-0-|
C|-0----------------------|--------------5----4----|-/5-2-2-0-/5-2-2--0-2-0-|-/5-2-2-0-/5-2-2--0-2-0-|
                                                           pm         pm...         pm         pm...


                                                                                                   x2
D|------------------------|------------------------|------------------------|------------------------|
A|------------------------|------------------------|------------------------|------------------------|
F|------------------------|------------------------|------------------------|------------------------|
C|------------------------|------------------------|------------------------|------------------------|
G|-5-----5------5-----5---|-/5-2-2---/5-2-2--0-2-0-|-5-----5------5-----5---|-/5-2-2---/5-2-2--0-2-0-|
C|-4-----4------5-----5---|-/5-2-2-0-/5-2-2--0-2-0-|-4-----4------5-----5---|-/5-2-2-0-/5-2-2--0-2-0-|
                                   pm         pm...                                 pm         pm...

  Lick 2
D|-12-12-12-12-12-12-12-12-|-11-11-11-11-11-11-11-11-|-10-10-10-10-10-10-10-10-|-11-11-11-11-11-11-11-11-|
A|--x--x--x--x--x--x--x--x-|--x--x--x--x--x--x--x--x-|--x--x--x--x--x--x--x--x-|--x--x--x--x--x--x--x--x-|
F|--9--9--9--9--9--9--9--9-|--8--8--8--8--8--8--8--8-|--7--7--7--7--7--7--7--7-|--8--8--8--8--8--8--8--8-|
C|-------------------------|-------------------------|-------------------------|-------------------------|
G|-------------------------|-------------------------|-------------------------|-------------------------|
C|-------------------------|-------------------------|-------------------------|-------------------------|



  Riff B                        x3
D|----------------------------------||--------------------------------------------|
A|----------------------------------||--------------------------------------------|
F|----------------------------------||--------------------------------------------|
C|----------------------------------||--------------------------------------------|
G|----------------------------------||--------------------------------------------|
C|-10b(11)-7-7-0-10b(11)-7-7--0-7-0-||-10b(11)-7-7-0-10-0-10-12-12b(13)r(12)-10-12-|
 


  Solo                                             x3
D|-------------------------|-------------------------|
A|-------------17----16----|-------------17----16----|
F|----17-16-17----17----17-|-16----16-17----17----17-|
C|-19----------------------|----19-------------------|
G|-------------------------|-------------------------|
C|-------------------------|-------------------------|


D|-------------------------|--------17-20-20b(22)r(20)-17---------|---------------|
A|-------------------------|-17-20------------------------20b(22)-|-17-17~~-------|
F|----------------17-19-20-|--------------------------------------|---------------|
C|----------17-19----------|--------------------------------------|---------------|
G|-17-18-19----------------|--------------------------------------|---------------|
C|-------------------------|--------------------------------------|---------------|

pozdr
petlica
 
Posty: 100
Dołączył(a): 5 kwi 2009, o 10:35
Lokalizacja: Krk

Re: My Soul`s Among The Lions

Postprzez petlica » 29 lis 2014, o 09:19

To jeszcze jeden numer. Naprawdę fajne solo w nim jest.
Kod: Zaznacz cały
Don't Drink Evil Things
Drop C

  Intro/RiffA                                                x2
D|------------------------------|------------------------------|
A|--------4-----5-----4---5-4---|--------4-----5-----7---8-7---|
F|--2-----4-----5-----4-------4-|--2-----4-----5-----7-------7-|
C|--2-----4-----5-----4---------|--2-----4-----5-----7---------|
G|--0---0-0---0-0---0-0---------|--0---0-0---0-0---0-0---------|
C|------------------------------|------------------------------|


 Riff B                                 x4
|------------------------------------------|
|------------------------------------------|
|-2--2----2-----2---2----------------------|
|-2--2----2-----2---2----------------------|
|-0--0----0-5-2-0---0-5-2-5----5-4-----5-5-|   
|-----------5-2-------5-2-5----5-4-0---4-5-|

Po 4 powtórzeniach wchodzi 3 gitara
 Riff 2B
|------------------------------------------|
|------------------------------------------|
|-2--2-------------------------------------|
|-2--2----11-9-7--11-----11-9-7-9~---------|
|-0--0-------------------------------------|
|------------------------------------------|

Po następnych 2 powtórzeniach wchodzi 4 gitara
 Riff 2C
|------------------------------------------|
|------------------------------------------|
|-2--2-------------------------------------|
|-2--2----14-12-11--14-----14-12-11--12~---|
|-0--0-------------------------------------|
|------------------------------------------|


 Riff C                                                                                  x3
|--------------------------------------|----------------10---------------------------------|
|--------------------------------------|-------------10------------------------------------|
|--------------------------------------|-----12b(14)-------12b(14)r(12)p10-12p10-12p10-----|
|--------------------------------------|-----------------------------------------------12--|
|-10-10-10-10--10--10-10--10--10-10-10-|-0-------------------------------------------------|
|-10-10-10-10---9--10--9--10--11-11-11-|-0-------------------------------------------------|

 
|--------------------------------------|-------------------|
|--------------------------------------|-------------------|
|--------------------------------------|-------------------|
|--------------------------------------|-------------------|
|-10-10-10-10--10--10-10--10--10-10-10-|-0---1--2-----/14--|
|-10-10-10-10---9--10--9--10--11-11-11-|-0---1--2-----/14\-|


Dla ułatwienia pierwszą część riff C można zagrać tak
|----------------------------|-------------------|
|----------------------------|-------------------|
|----------------------------|-------------------|
|-5-5-5-5--5--5--5--5--5-5-5-|-------------------|
|-3-3-3-3--2--3--2--3--4-4-4-|-0-----------------|
|----------------------------|-0-----------------|


 Riff C                                                                                  x3
|--------------------------------------|----------------10---------------------------------|
|--------------------------------------|-------------10------------------------------------|
|--------------------------------------|-----12b(14)-------12b(14)r(12)p10-12p10-12p10-----|
|--------------------------------------|-----------------------------------------------12--|
|-10-10-10-10--10--10-10--10--10-10-10-|-0-------------------------------------------------|
|-10-10-10-10---9--10--9--10--11-11-11-|-0-------------------------------------------------|


|--------------------------------------|---------------------|
|--------------------------------------|---------------------|
|--------------------------------------|---------------------|
|--------------------------------------|-0-------------------|
|-10-10-10-10--10--10-10--10--10-10-10-|-0---1--2------2-2-2-|
|-10-10-10-10---9--10--9--10--11-11-11-|-0---1--2------2-2-2-|


 Solo
|-----------------------------------------------------------|
|-5------5-------------5-------------5----------------------|
|-7b(9)--7b(9)---7-6-7-7b(9)---7-6-7-7b(9)----7-6-7p6-------|
|-----------------------------------------------------7-5-7-|
|-----------------------------------------------------------|
|-----------------------------------------------------------|


|-----------------------------------------------------------------------------|
|-17-------17-----------------17--------------17------------------------------|
|-19b(21)--19b(21)---19-18-19-19b(21)---19-18-19b(21)----19-18-19p18----------|
|--------------------------------------------------------------------19-17-19-|
|-----------------------------------------------------------------------------|
|-----------------------------------------------------------------------------|

|--------------------------------------|
|--------------------------------------|
|--------------18-19p18-19p18----------|
|-------17-19-----------------19-17-19-|
|-16-19--------------------------------|
|--------------------------------------|


|-------------------------------------------------|
|----------------------------------------20202020-|
|--------------18-19p18-19p18-19-21212121---------|
|-------17-19-------------------------------------|
|-16-19-------------------------------------------|
|-------------------------------------------------|


|---------17-17-17-17--------17-17-17-17-|
|-20b(22)-------------20b(22)------------|
|----------------------------------------|
|----------------------------------------|
|----------------------------------------|
|----------------------------------------|

                                                x3
|-19p17----17-21p17----17-22p17----17-21p17----17-|
|-------20----------20----------20----------20----|
|-------------------------------------------------|
|-------------------------------------------------|
|-------------------------------------------------|
|-------------------------------------------------|


|-22b(24)---22b(24)~----17-19-17---------17---------------------------|
|--------------------------------20b(22)----20-17---------17----------|
|-------------------------------------------------19b(21)----19b(21)~-|
|---------------------------------------------------------------------|
|---------------------------------------------------------------------|
|---------------------------------------------------------------------|


|-------------------------------------------------|
|--------------------------------20b(22)----------|
|-16-19-16----------------------------------------|
|----------19-17-18----17-18-19-------------------|
|-------------------19----------------------------|
|-------------------------------------------------|


|-------------------------------------------------|
|-20-17-20--20b(22)-----preb22r(20)-17--20~-------|
|-------------------------------------------------|
|-------------------------------------------------|
|-------------------------------------------------|
|-------------------------------------------------|


|----------------------------------------------------------------|
|--17-20-17--20b(22)-------20b(22)r(20)b(22)r(20)b(22)r(20)b(22)-|
|----------------------------------------------------------------|
|----------------------------------------------------------------|
|----------------------------------------------------------------|
|----------------------------------------------------------------|


|-------------------------------------------------|
|-20b(22)----20b(22)-16----16b(17)r(16)-----------|
|---------------------------------------16-14~----|
|-------------------------------------------------|
|-------------------------------------------------|
|-------------------------------------------------|


 Riff 2A                                                    x2
|------------------------------|------------------------------|
|--------4-----5-----4---5-4---|--------4-----5-----4---5-4---|
|--2-----4-----5-----4-------4-|--2-----4-----5-----4-------4-|
|--2-----4-----5-----4---------|--2-----4-----5-----4---------|
|--0---0-0---0-0---0-0---------|--0---0-0---0-0---0-0---------|
|------------------------------|------------------------------|


 Za drugim powtórezniem krótka  zagrywka
|------------------------------|------------------------------------------------|
|------------------------------|-----------------------16b(17)r(16)----14b(15)--|
|------------------------------|------------------------------------16----------|
|------------------------------|------------------------------------------------|
|------------------------------|------------------------------------------------|
|------------------------------|------------------------------------------------|


|-------------------------|-------------------------|
|-------------------------|-------------------------|
|-------------------------|-------------------------|
|-3-3-3-3-3-3-3-3-3-3-3-3-|-3-3-3-3-3-3-3-3---3---3-|
|-1-1-1-1-1-1-1-1-1-1-1-1-|-1-1-1-1-1-1-1-1---1---1-|
|-------------------------|-------------------------|

 
End Riff 2C
|------------------------------------------------|
|------------------------------------------------|
|------------------------------------------------|
|------------------------------------------------|
|-10-10-10--0-----10-10-10--0----10-10-10--0-----|
|-11-11-11--0-----11-11-11--0----11-11-11--0-----|



pozdr
petlica
petlica
 
Posty: 100
Dołączył(a): 5 kwi 2009, o 10:35
Lokalizacja: Krk


Powrót do Tabulatury

Kto przegląda forum

Użytkownicy przeglądający ten dział: Brak zidentyfikowanych użytkowników i 1 gość