Poplin' Twist

Poplin' Twist

Postprzez Mikele » 17 sty 2009, o 16:44

Poplin' Twist(2).gp5
autor: Mikele
(39.91 KiB) Pobrane 491 razy



acidfan napisał(a):A ja poszukuje tabów do "Disease Foundation" i "Edmund's Hypocrisy"...


Wszystko w swoim czasie, ja tu na pełny etat nie jestem, a kóla się wozi gdzieś po świecie ;) (a reszta się obija, choć na forum pełen lans, kto jest na jakim stopniu zajebistości w gitarowaniu ;) do roboty, kurde! :twisted: )


Mój tab do Poplin' Twist był w paczce, jaką Acrid wrzucał do pobrania, ale ponieważ dorobiłem sola, a i cholera wie, czy tamten link jest jeszcze aktywny, tak więc:

Kod: Zaznacz cały
Acid Drinkers
Streaptease
Poplin' Twist

by Mikele

Riff na intro, main riff i refreny:

||-------------------------|-------------------------|
||-------------------------|-------------------------|
||-------------------------|-------------------------|
||-------------------------|----------5--4-----------|
||---2-------3--2-------5--|--4-------3--2-----------|
||---0----0--1--0----0--3--|--2----2----------2~-----|

pre-verse:

|------------------------|------------------------|------------------------|----------------------------------|
|------------------------|------------------------|------------------------|----------------------------------|
|------------------------|------------------------|------------------------|----------------------------------|
|--9--9-9-9--8-----------|--5--5-5-5--6-----------|--9--9-9-9--8-----------|--12--12--12--11--11--11--11--11--|
|--9--9-9-9--8-----------|--5--5-5-5--6-----------|--9--9-9-9--8-----------|--12--12--12--11--11--11--11--11--|
|--7--7-7-7--6-----------|--3--3-3-3--4-----------|--7--7-7-7--6-----------|--10--10--10---9---9---9---9---9--|

zwrotka i podkłady pod sola:

|---------------------------|----------------------------|
|---------------------------|----------------------------|
|---------------------------|----------------------------|
|------------2-----------2--|------------2-----2-----2---|
|------------2-----------2--|------------2-----2-----2---|
|---0--0--0--0--0--0--0--0--|--0-0-0--0--0--0--0--0--0---|

pre-chorus:

|---------------------------|---------------------------|
|---------------------------|---------------------------|
|---------------------------|---------------------------|
|---------------------------|---------------------------|
|---4--4--4--4--4--4--4--5--|--5--5--5--5--5--5--5--5---|
|---2--2--2--2--2--2--2--3--|--3--3--3--3--3--3--3--3---|


solo nr1:

|----------------------|--------------------------------|-----------------------------|-----------------------------|
|--12------------------|----------------11br------------|-----------------------------|-----------------------------|
|---9br----------------|--------11--12----------12--11--|--11----11--11br-------------|------------------9br--------|
|----------------------|--------------------------------|------------12---------------|-----------9--10---------10--|
|----------------------|--------------------------------|-----------------------------|-------12--------------------|
|----------------------|--------------------------------|-----------------------------|-----------------------------|


|---------------------|-----------------------------|---------------------------|-------------------------|
|---------------------|-----------------------------|-----------------------10--|-------------------------|
|--9------------------|---------------8br-----------|--9~------11--12-----------|--12-------10~-----------|
|--7br----------------|-----7--9--10---------10--9--|--9------------9~----------|---9b-------9------------|
|---------------------|-----------------------------|---------------------------|-------------------------|
|---------------------|-----------------------------|---------------------------|-------------------------|


interludium, podział triolowy (nie grane na koncertach, a szkoda):

Partia gitary 1szej, pierwsze 4 takty:
|--------------------------------------|
|--------------------------------------|
|--------------------------------------|
|--------------------------------------|
|--------------------------------------|
|--0--0--0--0--0--0--0--0--0--0--0--0--|

partie obu gitar, początkowo gitara 2ga gra ten riff na podkładzie E5 (powyżej), później obie razem:

|---------------------------------------|--------------------------------------|--------------------------------------|---------------------------------------|
|---------------------------------------|--------------------------------------|--------------------------------------|---------------------------------------|
|---------------------------------------|--------------------------------------|--------------------------------------|---------------------------------------|
|---------------------------------------|--------------------------------------|--------------------------------------|---------------------------------------|
|---2-----2-----2-----2-----------0--2--|--2-----2-----2-----2-----------0--2--|--3-----3-----3-----3-----------3--4--|--3-----3-----3-----3-----------2--3---|
|------0-----------------0--2--3--------|-----0-----------------0--2--3--------|-----1-----------------1--3--4--------|-----1-----------------1--3--4---------|


przed 2 solo grany jest main riff z akcentowanym biciem, na podkład pod solo riff na zwrotkę, w ostatniej częsci solo na tym samym biciu grane (po dwa takty) dźwięki G i F#

solo 2:

|------------------------------------|---------------------------------|------------------------------------|-----------------------------9-12-------|
|--------------------------10~-------|---------------------------------|--------------------------10~-------|-----------------------------9----------|
|-----12p-9----9~--12-9-12-------12--|-----12p-9-----------------------|-----12p-9----9~--12-9-12-------12--|-----------------------------9----9-----|
|------------------------------------|-----------12--------------------|------------------------------------|---------------------9-------9----------|
|------------------------------------|---------------10------9--10-----|------------------------------------|-----9-10-12-9-10-12---10-12------------|
|------------------------------------|-------------------12------------|------------------------------------|--12------------------------------------|


|------------------------------------|-----15-12---12---12--~----12-----|------------15-12----12-----------15-12----12-|--15-12----12-15-12----12-12~--12~--12~--12~---|
|--------------------------10~-------|----------------------------------|------------------15--------------------15----|--------15----------15-------------------------|
|-----12p-9----9~--12-9-12-------12--|-------------------------------9--|--12-9----9-------------12-9----9-------------|-----------------------------------------------|
|------------------------------------|----------------------------------|-------12--------------------12---------------|-----------------------------------------------|
|------------------------------------|----------------------------------|----------------------------------------------|-----------------------------------------------|
|------------------------------------|----------------------------------|----------------------------------------------|-----------------------------------------------|


|----------------------------------------|----------------------------------------|----------------------------------------|---------------------------------|
|-----12~--10------------12~--10---------|-----12~--10------------12~--10---------|-----11~--10------------11~--10---------|-----12--12--12--12--12--12--12--|
|-------------12-11-9------------12-11-9-|-------------12-11-9------------12-11-9-|-------------12-10-9------------12-10-9-|------9-----------9---9---9---9--|
|----------------------------------------|----------------------------------------|----------------------------------------|---------------------------------|
|----------------------------------------|----------------------------------------|----------------------------------------|---------------------------------|
|----------------------------------------|----------------------------------------|----------------------------------------|---------------------------------|



|-----------------------------|-------------------|
|--12--11--11--12~------------|-------------------|
|---9---9---9---9----b--------|-------------------|
|-----------------------------|-------------------|
|-----------------------------|-------------------|
|-----------------------------|-------------------|

A później zwrotka, refren, outro i żyli długo i szczęśliwie ;)

Oznaczenia te same co zwykle: band, band and release, vibrato, etc etc.

Obrazek
Avatar użytkownika
Mikele
 
Posty: 5967
Dołączył(a): 7 mar 2006, o 19:33
Lokalizacja: Wrocław i okolice

1

Postprzez petlica » 6 maja 2009, o 08:40

Też już było ale coś mi nie pasowało.
Jakby jakieś uwagi spostrzeżenia chętnie wysłucham.
Stój obniżony chyba do Cis
pozdr

Kod: Zaznacz cały
Acid Drinkers
Streaptease
Poplin' Twist

by petlica

Intro - Riff A

E|-------------------------|-------------------------|-------------------------|
H|-------------------------|-------------------------|-------------------------|
G|-------------------------|-------------------------|-------------------------|
D|----------5--4-----------|-------------------------|-------------------------|
A|----------3--2----4------|---2-------3--2-------5--|--4-------3--2~----------|
E|------------------2------|---0----0--1--0----0--3--|--2----2----------2------|


E|-------------------------|-------------------------|-------------------------|
H|-------------------------|-------------------------|-------------------------|
G|-------------------------|-------------------------|-------------------------|
D|-------------------------|----------5--4-----------|-------------------------|
A|---2-------3--2-------5--|--4-------3--2----4------|---2-------3--2-------5--|
E|---0----0--1--0----0--3--|--2----2----------2------|---0----0--1--0----0--3--|


E|-------------------------|-------------------------|-------------------------|
H|-------------------------|-------------------------|-------------------------|
G|-------------------------|-------------------------|-------------------------|
D|-------------------------|-------------------------|----------5--4-----------|
A|--4-------3--2~----------|---2-------3--2-------5--|--4-------3--2----4------|
E|--2----2----------2------|---0----0--1--0----0--3--|--2----2----------2------|


Riff B

E|----------------------------|----------------------------|
H|----------------------------|----------------------------|
G|----------------------------|----------------------------|
D|-2-----------2-----------2--|------------2-----2-----2---|
A|-2-----------2-----------2--|------------2-----2-----2---|
E|-0--0--0--0--0--0--0--0--0--|--0-0-0--0--0--0--0--0--0---|




Pre Verse

 Guitar_1
|--------------------|--------------------|--------------------|--------------------|
|--------------------|--------------------|--------------------|--------------------|
|-13-13-13-13--12~---|--9--9--9--9--11~---|-13-13-13-13--12~---|-15-15-15-15--14~---|
|-13-13-13-13--13~---|-10-10-10-10--12~---|-13-13-13-13--13~---|-16-16-16-16--15~---|
|--------------------|--------------------|--------------------|--------------------|
|--------------------|--------------------|--------------------|--------------------|
|                    |                    |                    |                    |
|Guitar_2            |                    |                    |                    |
|--------------------|--------------------|--------------------|--------------------|
|--------------------|--------------------|--------------------|--------------------|
|--------------------|--------------------|--------------------|--------------------|
|--6--6--6--6---5--5-|--5--5--5--5---7--7-|--6--6--6--6---5--5-|--8--8--8--8---7~---|
|--6--6--6--6---6--6-|--3--3--3--3---5--5-|--6--6--6--6---6--6-|--9--9--9--9---8----|
|--------------------|--------------------|--------------------|--------------------|



Verse Riff B

  Guitar_1&2
E|----------------------------|----------------------------|
H|----------------------------|----------------------------|
G|----------------------------|----------------------------|
D|-2-----------2-----------2--|------------2-----2-----2---|
A|-2-----------2-----------2--|------------2-----2-----2---|
E|-0--0--0--0--0--0--0--0--0--|--0-0-0--0--0--0--0--0--0---|


Pre-chorus:

 Guitar_1
|------------------------|------------------------|------------------------|------------------------|
|------------------------|------------------------|------------------------|------------------------|
|------------------------|------------------------|------------------------|------------------------|
|------------------------|------------------------|---/4-----4--4----------|------------------------|
|---/4--4--4--4~----2--4-|---/5--5-----5/7---5~---|-------------------4~---|---5--/7---5---4~--2~---|
|------------------------|------------------------|------------------------|------------------------|
|                        |                        |                        |                        |
|Guitar_2                |                        |                        |                        |
|------------------------|------------------------|------------------------|------------------------|
|------------------------|------------------------|------------------------|------------------------|
|------------------------|------------------------|------------------------|------------------------|
|------------------------|------------------------|------------------------|------------------------|
|-4--------4--------4--4-|-5--------5--------5--5-|-4--------4--------4--4-|-5--------5--------5--5-|
|-2--2--2--2--2--2--2--2-|-3--3--3--3--3--3--3--3-|-2--2--2--2--2--2--2--2-|-3--3--3--3--3--3--3--3-|




 Guitar_1
|------------------------|------------------------|------------------------|------------------------|
|------------------------|------------------------|------------------------|------------------------|
|------------------------|------------------------|------------------------|------------------------|
|------------------------|------------------------|---/4-----4--4----------|------------------------|
|---/4--4--4--4~----2--4-|---/5--5-----5/7---5~---|-------------------4~---|---5--/7---5---4~--2~---|
|------------------------|------------------------|------------------------|------------------------|
|                        |                        |                        |                        |
|Guitar_2                |                        |                        |                        |
|------------------------|------------------------|------------------------|------------------------|
|------------------------|------------------------|------------------------|------------------------|
|------------------------|------------------------|------------------------|------------------------|
|------------------------|------------------------|---/4-----4--4----------|------------------------|
|-4--------4--------4--4-|-5--------5--------5--5-|-------------------4~---|---5--/7---5---4~--2~---|
|-2--2--2--2--2--2--2--2-|-3--3--3--3--3--3--3--3-|------------------------|------------------------|




Bridge

  Guitar_1&2
E|----------------------|----------------------|----------------------|----------------------|
H|----------------------|----------------------|----------------------|----------------------|
G|----------------------|----------------------|----------------------|----------------------|
D|----------------------|----------------------|----------------------|----------------------|
A|-------0-2---2---2----|-------0-2---2---2----|-------0-3---3---3----|-------0-3---3---3----|
E|-0-2-3---------0---0--|-0-2-3---------0---0--|-0-2-3---------0---0--|-0-2-3---------0---0--|


Riff C

E|--------------------------|------------------------|
H|--------------------------|------------------------|
G|--------------------------|------------------------|
D|--------------------------|-----------5--4---------|
A|--2--------3--2--------5--|--4--------3--2----4----|
E|--0--0--0--1--0--0--0--3--|--2--2--2----------2----|






petlica
 
Posty: 100
Dołączył(a): 5 kwi 2009, o 10:35
Lokalizacja: Krk

Postprzez Mikele » 6 maja 2009, o 10:59

Różnice między naszymi tabami są w pre-verse (Twoja zgodna z albumem, ja leciałem z tego, co się dzieje na koncertach), i w bridge'u, prawdę mówiąc dawno nie słuchałem Streaptease, ale zdaje mi się, ze bridge miał bardziej złożoną strukturę.
Obrazek
Avatar użytkownika
Mikele
 
Posty: 5967
Dołączył(a): 7 mar 2006, o 19:33
Lokalizacja: Wrocław i okolice

Re: Poplin' Twist

Postprzez Mihau » 13 gru 2009, o 15:17

dysponuje ktoś może tabem w dropped C?
Mihau
 
Posty: 268
Dołączył(a): 22 kwi 2008, o 19:29
Lokalizacja: Poznań

Re: Poplin' Twist

Postprzez Mikele » 13 gru 2009, o 18:42

Przetransponuj sobie w GP a nie śmiecisz w temacie :roll:
Obrazek
Avatar użytkownika
Mikele
 
Posty: 5967
Dołączył(a): 7 mar 2006, o 19:33
Lokalizacja: Wrocław i okolice

Re:

Postprzez wujek_wladek » 17 mar 2010, o 02:17

Mikele napisał(a):Różnice między naszymi tabami są w pre-verse (Twoja zgodna z albumem, ja leciałem z tego, co się dzieje na koncertach), i w bridge'u, prawdę mówiąc dawno nie słuchałem Streaptease, ale zdaje mi się, ze bridge miał bardziej złożoną strukturę.


generalnie w wersji studyjnej jak i chociażby w wersji z varran strikes back - alive w momencie przejscia na pre-verse jest zmiana tonacji o pół tonu w dół (tylko na czas pre-verse) potem jest z powrotem tak jak na początku... jeśli zaś chodzi wersje z Olkiem na wokalu (np. DVD z metalmanii) jest już grane bez tej zmiany...


tak mi się wydaje... sam się nad tym głowiłem bo w tych wersjach z Licą jakoś mnie to gryzło :)

pozdro!
wujek_wladek
 
Posty: 11
Dołączył(a): 26 paź 2009, o 12:27
Lokalizacja: Jasło/Looblin

Re: Poplin' Twist

Postprzez dzbaninchi » 24 cze 2011, o 21:00

Pokusiłby się ktoś napisać w jakim stroju gra tutaj bas? Wydaje mi się że jest to o cały strój w dół, chociaż mam wątpliwości... Taby można rozkminić patrząc na to co gra gitara rytmiczna;
dzbaninchi
 
Posty: 4
Dołączył(a): 24 cze 2011, o 20:58

Re: Poplin' Twist

Postprzez Kred » 24 cze 2011, o 21:12

Mi wychodzi: E B F# C#
Kred
 
Posty: 8438
Dołączył(a): 1 lis 2008, o 05:36


Powrót do Strip Tease

Kto przegląda forum

Użytkownicy przeglądający ten dział: Brak zidentyfikowanych użytkowników i 1 gość