Disease Foundation

Disease Foundation

Postprzez wisień » 17 sty 2009, o 16:58

Kod: Zaznacz cały
[code][b]Disease Foundation [/b]

Intro:
|-----------------------------|-------------------------
|-----------------------------|-------------------------
|-----------------------------|-------------------------
|-----------------------------|-------------------------
|---2---2---2---2---3---------|--2---2---2-3-5-3-
|-0-2-0-2-0-2-0-2-0-3---------|--0-2-0-2-0-2-3-5-4-

|---------------------------------------|
|---------------------------------------|
|---------------------------------------|
|-2----2----2--------------------------|
|-2----2----2--------------------------|
|-0----2----0--------------------------|


verse:
|------------------------------|-----------------------------------
|------------------------------|-----------------------------------
|------------------------------|-----------------------------------
|------------------------------|-----------------------4----5--------
|------------------------------|-----------------------4----5--------
|--0-2-0-2-0-2-0-2-0h3---------|---0-2-0-2-0-2-0-2-0-3--------

|---------------------------------------|
|---------------------------------------|
|---------------------------------------|
|---------------------------------------|
|---------------------------------------|
|--3-0-3-5-4---------------------------------|

Never gonna give it up!
|-------------------------|
|-------------------------|
|-------------------------|
|--666666666666-----|
|--666666666666-----|
|--666666666666-----|

Chorus:
…Digging your grave on the sunny beatch!…                ….Just play with madness!
|-------------------------------------------|----------------------------------------
|-------------------------------------------|----------------------------------------
|-------------------------------------------|----------------------------------------
|-------------------------------------------|----------------------------------------
|----6--------5-------4---3---9~~-----------|----3-------2----------1-------------
|----6-----0--5--0----4-0-3-----------------|----3---0---2-----0----1-------------

 NIe wiem czy jest dobrze do końca bo ja gram na D-dropped a nie niżej ;p więc mogłem się pomylić, pozdro[/code]
Ostatnio edytowano 17 sty 2009, o 17:18 przez wisień, łącznie edytowano 4 razy
I poddaje się złudzeniu, że pozbyłem się złudzeń...
Avatar użytkownika
wisień
 
Posty: 511
Dołączył(a): 13 gru 2006, o 17:33
Lokalizacja: Toruń

Re: Disease Foundation

Postprzez petlica » 1 lut 2014, o 21:56

Kod: Zaznacz cały
Acid Drinkers
Acidofilia
Disease Foundation
Strój standard C

Intro
Riff A
|----------------------------|---------------------------|
|----------------------------|---------------------------|
|----------------------------|---------------------------|
|-7-9-7-9-7-9-7-9-7-9-9/10\9-|-7-9-7-9-------------------|
|-5-7-5-7-5-7-5-7-5-7-7/-8\7-|-5-7-5-7-----5-----5---5-6-|
|-5-7-5-7-5-7-5-7-5-7-7/-8\7-|-5-7-5-7--0--3--0--3---3-4-|



|----------------------------|------------------|--------------------|
|----------------------------|------------------|--------------------|
|----------------------------|------------------|--------------------|
|-7-9-7-9-7-9-7-9-7-9-9/10\9-|-7-9--------------|--------------------|
|-5-7-5-7-5-7-5-7-5-7-7/-8\7-|-5-7---------5----|-2-----------5------|
|-5-7-5-7-5-7-5-7-5-7-7/-8\7-|-5-7------0--3----|-0--------0--3------|


Verse
Riff 2A
|----------------------------|---------------------------|
|----------------------------|---------------------------|
|----------------------------|---------------------------|
|-7-9-7-9-7-9-7-9-7-9-9/10\9-|-7-9-7-9-------------------|
|-5-7-5-7-5-7-5-7-5-7-7/-8\7-|-5-7-5-7-----5-----5---5-6-|
|----------------------------|----------0--3--0--3---3-4-|


Pre-Chorus

|-------------------------------|----------------------------------|
|-------------------------------|----------------------------------|
|-------------------------------|----------------------------------|
|-------------------------------|----------------------------------|
|--7-7-5-7-5-------7-7-5-7-5----|--7-7-5-7-5---------5-----5---5-6-|
|--5-5-3-5-3-5b----5-5-3-5-3-5b-|--5-5-3-5-3-5b---0--3--0--3---3-4-|


|-----------------|
|-----------------|
|-----------------|
|-----------------|
|-7-7-7-7-7-7-7-7-|
|-5-5-5-5-5-5-5-5-|

Chorus:
…Digging your grave on the sunny beatch!… 
|-------------------------------------------|
|-------------------------------------------|
|----------------------3b(4)----------------|
|-9-9-----7---------------------4-4------3--|
|-9-9-----7-----5---------------4-4------3--|
|-7-7--0--5--0--3--0-0----------2-2----0-1--|


Riff A x2
Riff 2A x4
Pre-Chorus

Chorus 2                                                    x3
|-----------------------------------------||------------------|
|-----------------------------------------||------------------|
|--------------------3b(4)----------------||------------------|
|-9-9-----7-------------------4-4------3--||------4-------3---|
|-9-9-----7-----5-------------4-4------3--||------4-------3---|
|-7-7--0--5--0--3--0----------2-2----0-1--||------2-----0-1---|


Solo background
               x3
|----------------|------------------|
|----------------|------------------|
|----------------|------------------|
|---7-7-7-7-7-9--|------------------| x2
|---5-5-5-5-5-7--|----5-----5---5-6-|
|-0--------------|-0--3--0--3---3-4-|


                     x4
|----------------------||-----------------|-----------------|
|----------------------||-----------------|-----------------|
|----------------------||-----------------|-----------------|
|----------------------||-----------------|-----------------|
|-------------------5--||-7-7-7-7-7-7-7-7-|-7-7-7-7-7-7-7-7-|
|-0-2-0-2-0-2-0-2-0-3--||-5-5-5-5-5-5-5-5-|-5-5-5-5-5-5-5-5-|
                 pm      pm................................

|-----------------------------------|-----------------------------|
|-----------------------------------|-----------------------------|
|-----------------------------------|-----------------------------|
|-----------------------------------|-----------------------------|
|-5-7~-5-7~-5-7~-5-7~-5-7~-7b(8)r7~-|-5-7~-5-7~-----5-----5---5-6-|
|-----------------------------------|------------0--3--0--3---3-4-|
                                                pm    pm

Chorus 3                                  x4
|-------------------------------------------||------------------|
|-------------------------------------------||------------------|
|----------------------3b(4)----------------||------------------|
|-9-9-----7---------------------4-4------3--||------4-------3---|
|-9-9-----7-----5---------------4-4------3--||------4-------3---|
|-7-7--0--5--0--3--0-0----------2-2----0-1--||------2-----2-1---|
petlica
 
Posty: 100
Dołączył(a): 5 kwi 2009, o 10:35
Lokalizacja: Krk


Powrót do Acidofilia

Kto przegląda forum

Użytkownicy przeglądający ten dział: Brak zidentyfikowanych użytkowników i 1 gość