Propaganda

Propaganda

Postprzez petlica » 1 lut 2014, o 21:47

Kod: Zaznacz cały
Acid Drinkers
Acidofilia
Propaganda

Strój standard C

 Intro - Riff A                                                                            x4
|----------------------|----------------------|----------------------|-----------------------|
|----------------------|----------------------|----------------------|-----------------------|
|----------------------|----------------------|----------------------|-----------------------|
|----------------------|----------------------|----------------------|-----------------------|
|----------------------|----------------------|----------------------|-----------------2-----|
|-0---0-0-1--0-0-1--0--|-0---0-0-1--0-0-1--0--|-0---0-0-1--0-0-1--0--|-0---0-0-1-0--1-----1--|
     pm..   pm..            pm..   pm..            pm..   pm..            pm.. 

 Verse - Riff 2A                                                                           x4
|----------------------|----------------------|----------------------|-----------------------|
|----------------------|----------------------|----------------------|-----------------------|
|----------------------|----------------------|----------------------|-----------------------|
|----------------------|----------------------|----------------------|-----------------------|
|-2-------3------3--2--|-2-------3------3--2--|-2-------3------3--2--|-2-------3-2-----2-----|
|-0---0-0-1--0-0-1--0--|-0---0-0-1--0-0-1--0--|-0---0-0-1--0-0-1--0--|-0---0-0-1-0--1-----1--|
  pm.............................................................................. 


 Pre-Chorus - Riff B                                                                    x4
|---------------------|---------------------|---------------------|-----------------------|
|---------------------|---------------------|---------------------|-----------------------|
|-----------3-3-3-3---|-----------7-7-7-7---|-----------9-9-9-9---|---------12-12-12-12---|
|-----------x-x-x-x---|-----------x-x-x-x---|-----------x-x-x-x---|----------x--x--x--x---|
|-2---------1-1-1-1---|-2---------5-5-5-5---|-2---------7-7-7-7---|-2-------10-10-10-10---|
|-0-----------------3-|-0-----------------3-|-0-----------------3-|-0-------------------3-|


 Riff A - x2

 Verse 2 - Riff 2A - x4 

 Pre-Chorus - Riff B - x4


 Riff C

 Gtr1&2
|--------------------------------|------------------------------|
|--------------------------------|------------------------------|
|--2--------------6--6-6--5--5-5-|-9--9-9-9-9----6--6-6--5--5-5-|
|--2--------------7--7-7--7--7-7-|-7--7-7-7-7----7--7-7--7--7-7-|
|--0--------------0--0-0--0--0-0-|-0--0-0-0-0----0--0-0--0--0-0-|
|--------------------------------|------------------------------|



 Gtr1
|--------------------------------|------------------------------|
|--------------------------------|------------------------------|
|--9--9-9-9-9-----6--6-6--5--5-5-|-9--9-9-9-9----6--6-6--5--5-5-|
|--x--x-x-x-x-----x--x-x--x--x-x-|-x--x-x-x-x----x--x-x--x--x-x-|
|--7--7-7-7-7-----4--4-4--3--3-3-|-7--7-7-7-7----4--4-4--3--3-3-|
|--------------------------------|------------------------------|
|                                |                              |
|Gtr2                            |                              |
|--------------------------------|------------------------------|
|--------------------------------|------------------------------|
|--9--9-9-9-9-----6--6-6--5--5-5-|-9--9-9-9-9----6--6-6--5--5-5-|
|--7--7-7-7-7-----7--7-7--7--7-7-|-7--7-7-7-7----7--7-7--7--7-7-|
|--0--0-0-0-0-----0--0-0--0--0-0-|-0--0-0-0-0----0--0-0--0--0-0-|
|--------------------------------|------------------------------|




 Chorus - Riff D                                                x2
|--------------------------------|--------------------------------|
|--------------------------------|--------------------------------|
|--2--2-2-2-2-----6--6-6--5--5-5-|--2--2-2-2-2-----6--6-6--5--5-5-|
|--2--2-2-2-2-----6--6-6--5--5-5-|--2--2-2-2-2-----6--6-6--5--5-5-|
|--0--0-0-0-0-----4--4-4--3--3-3-|--0--0-0-0-0-----4--4-4--3--3-3-|
|--------------------------------|--------------------------------|


 Riff A - x2

 Verse 3 - Riff 2A - x4 

 Riff C

 Riff D

 Riff 2D   
 Gtr1                                                              x2
|----------------------------------|----------------------------------|
|----------------14-14-14-13-13-13-|----------------14-14-14-13-13-13-|
|--9--9-9-9-9----------------------|--9--9-9-9-9----------------------|
|--7--7-7-7-7----------------------|--7--7-7-7-7----------------------|
|--0--0-0-0-0----------------------|--0--0-0-0-0----------------------|
|----------------------------------|----------------------------------|
|                                  |                                  |
|Gtr2                              |                                  |
|----------------------------------|----------------------------------|
|----------------14-14-14-17-17-17-|----------------14-14-14-17-17-17-|
|--9--9-9-9-9----------------------|--9--9-9-9-9----------------------|
|--7--7-7-7-7----------------------|--7--7-7-7-7----------------------|
|--0--0-0-0-0----------------------|--0--0-0-0-0----------------------|
|----------------------------------|----------------------------------|


 Riff 3A
|----------------------|----------------------|----------------------|---------------------|
|----------------------|----------------------|----------------------|---------------------|
|----------------------|----------------------|----------------------|---------------------|
|----------------------|----------------------|----------------------|----------------4----|
|----------------------|----------------------|----------------------|----------------2----|
|-0---0-0-1--0-0-1--0--|-0---0-0-1--0-0-1--0--|-0---0-0-1--0-0-1--0--|-0---0-0-1-0--0------|
     pm..   pm..            pm..   pm..            pm..   pm..            pm..     pm

                                                                                          x2
|----------------------|----------------------|----------------------|-----------------------|
|----------------------|----------------------|----------------------|-----------------------|
|----------------------|----------------------|----------------------|-----------------------|
|----------------------|----------------------|----------------------|-----------------------|
|-2-------3------3--2--|-2-------3------3--2--|-2-------3------3--2--|-2-------3-2-----2-----|
|-0---0-0-1--0-0-1--0--|-0---0-0-1--0-0-1--0--|-0---0-0-1--0-0-1--0--|-0---0-0-1-0--1-----1--|
     pm..   pm..            pm..   pm..            pm..   pm..            pm.. 

|----------------------|----------------------|----------------------|-------------------|
|----------------------|----------------------|----------------------|-14-14-14-13-13-13-|
|----------------------|----------------------|----------------------|-------------------|
|-2--2-----------------|-2--2-----------------|-2--2-----------------|-------------------|
|-2--2-----------------|-2--2-----------------|-2--2-----------------|-------------------|
|-0--0-----------------|-0--0-----------------|-0--0-----------------|-------------------|


|----------------------|----------------------|----------------------|-------------------|
|----------------------|----------------------|----------------------|-------------------|
|----------------------|----------------------|----------------------|-------------------|
|-2--2-----------------|-2--2-----------------|-2--2-----------------|-2--2--------------|
|-2--2-----------------|-2--2-----------------|-2--2-----------------|-2--2--------------|
|-0--0-----------------|-0--0-----------------|-0--0-----------------|-0--0--------------|
petlica
 
Posty: 100
Dołączył(a): 5 kwi 2009, o 10:35
Lokalizacja: Krk

Powrót do Acidofilia

Kto przegląda forum

Użytkownicy przeglądający ten dział: Brak zidentyfikowanych użytkowników i 1 gość

cron