Edmund's Hypocrisy

Edmund's Hypocrisy

Postprzez petlica » 1 lut 2014, o 21:49

Kod: Zaznacz cały
Acid Drinkers
Acidofilia
Edmund's Hypocrisy

Strój standard C


 Verse - Riff A                                             x4
|-------------------------------------------------------------|
|-------------------------------------------------------------|
|-------------------------------------------------------------|
|-------------------------------------------------------------|
|-7-7--6-7-7--6-7-7--6-7-7----10-10----4-4----10-10----4-4----|
|-5-5--4-5-5--4-5-5--4-5-5--0--8--8--0-2-2--0--8--8--0-2-2--0-|

 Chorus - Riff B                                                x4
|---------------------------------|-------------------------------|
|---------------------------------|-------------------------------|
|---------------------------------|-------------------------------|
|-6-6-6-6-6-6-6-6-6-6-6-6-6-6-6-6-|-------------------------------|
|-4-4-4-4-4-4-4-4-4-4-4-4-4-4-4-4-|---------3----------3----------|
|---------------------------------|-2-0-2-3----2-0-2-3----2-0-2-3-|


Solo background - Riff A - x4

Verse 2 - Riff A - 4x
Chorus 2 - Riff B - 4x

 Riff 2B
|-------------------------------|-------------------------------|
|-------------------------------|-------------------------------|
|-------------------------------|-------------------------------|
|-------------------------------|-------------------------------|
|---------3----------3----------|----------3----------3---------|
|-2-0-2-3----2-0-2-3----2-0-2-3-|-2-0-2-3----2-0-2-3----2-0-2-3-|

 Riff 3B                                                      x2
|-------------------------------|-------------------------------|
|-------------------------------|-------------------------------|
|-------------------------------|-------------------------------|
|---------5----------5----------|----------5----------5---------|
|-4-2-4-5-3--4-2-4-5-3--4-2-4-5-|-4-2-4-5--3-4-2-4-5--3-4-2-4-5-|
|-2-0-2-3----2-0-2-3----2-0-2-3-|-2-0-2-3----2-0-2-3----2-0-2-3-|
  pm.....    pm.....    pm.....   pm.....    pm.....    pm......


 Riff 4B                                                                        x2
|----------------------------------------|----------------------------------------|
|----------------------------------------|----------------------------------------|
|----------------------------------------|----------------------------------------|
|----------------------------------------|----------------------------------------|
|------------15------------15------------|------------15------------15------------|
|-14-0-14-15----14-0-14-15----14-0-14-15-|-14-0-14-15----14-0-14-15----14-0-14-15-|


Bridge

 Gtr1
|----------------------------------------------|
|----------------------------------------------|
|----------------------------------------------|
|-16-16-16-16-16--16-16-16-16--16--16-16-16-16-|
|----------------------------------------------|
|----------------------------------------------|
  pm.........     pm.........      pm.........


|----------------------------------------------|
|----------------------------------------------|
|----------------------------------------------|
|-14-14-14-14-14--14-14-14-14--16--14-14-14-14-|
|----------------------------------------------|
|----------------------------------------------|
  pm.........     pm.........      pm.........

|----------------------------------------------|
|----------------------------------------------|
|----------------------------------------------|
|-13-13-13-13-13--13-13-13-13--13--13-13-13-13-|
|----------------------------------------------|
|----------------------------------------------|
  pm.........     pm.........      pm.........


|----------------------------------------------|
|----------------------------------------------|
|----------------------------------------------|
|-10-10-10-10-10--10-10-10-10--10--10-10-10-10-|
|----------------------------------------------|
|----------------------------------------------|
  pm.........     pm.........      pm.........

 Gtr2
|-------------20-------------20-------------|
|-19-17-19-20----19-17-19-20----19-17-19-20-|
|-------------------------------------------|
|-------------------------------------------|
|-------------------------------------------|
|-------------------------------------------|

 Gtr1
|--------------------------------|--------------------------------|
|--------------------------------|--------------------------------|
|--------------------------------|--------------------------------|
|--4-4-4-4----4-4-4-4---4-4-4-4--|--4-4-4-4----4-4-4-4---4-4-4-4--|
|--------------------------------|--------------------------------|
|----------2----------2----------|----------2----------2----------|

 Gtr2
|-1414141414-1414141414-14141414-|-1212121212-1212121212-12121212-|
|--x-x-x-x-x--x-x-x-x-x--x-x-x-x-|--x-x-x-x-x--x-x-x-x-x--x-x-x-x-|
|-1111111111-1111111111-11111111-|--9-9-9-9-9--9-9-9-9-9--9-9-9-9-|
|--------------------------------|--------------------------------|
|--------------------------------|--------------------------------|
|--------------------------------|--------------------------------|

 Gtr2
|-1111111111-1111111111-11111111-|--8-8-8-8-8--8-8-8-8-8--8-8-8-8-|
|--x-x-x-x-x--x-x-x-x-x--x-x-x-x-|--x-x-x-x-x--x-x-x-x-x--x-x-x-x-|
|--8-8-8-8-8--8-8-8-8-8--8-8-8-8-|--5-5-5-5-5--5-5-5-5-5--5-5-5-5-|
|--------------------------------|--------------------------------|
|--------------------------------|--------------------------------|
|--------------------------------|--------------------------------|


Chorus 3 - Riff B - 4x

Riff 2B
petlica
 
Posty: 100
Dołączył(a): 5 kwi 2009, o 10:35
Lokalizacja: Krk

Powrót do Acidofilia

Kto przegląda forum

Użytkownicy przeglądający ten dział: Brak zidentyfikowanych użytkowników i 1 gość

cron