Hydrogen

Hydrogen

Postprzez petlica » 1 lut 2014, o 21:52

Kod: Zaznacz cały
Acid Drinkers
Acidofilia
Hydrogen

Strój standard C

 Intro                                                        x2
|-------------------------------|-------------------------------|
|-------------------------------|-------------------------------|
|-------------------------------|-------------------------------|
|-------------------------------|-------------------------------|
|-----14--------14---14b(15)-14-|-----14--------14---14b(15)-14-|
|-0--------13-------------------|-0--------13-------------------|

                                                    x2
|--------------------------|--------------------------|
|--------------------------|--------------------------|
|------4---------4---------|------4---------4---------|
|-2----4----3----4---4/5-4-|-2----4----3----4---4/5-4-|
|-2----2----3----2---2/3-2-|-2----2----3----2---2/3-2-|
|-0---------1--------------|-0---------1--------------|

                                                              x2
|-------------------------------|-------------------------------|
|-------------------------------|-------------------------------|
|-------------------------------|-------------------------------|
|-------------------------------|-------------------------------|
|-----14--------14---14b(15)-14-|-----14--------14---14b(15)-14-|
|-0--------13-------------------|-0--------13-------------------|


                                                              x2
|-------------------------------|-------------------------------|
|-------------------------------|-------------------------------|
|-----16--------16---16b(17)-16-|-----16--------16---16b(17)-16-|
|-14-------15-------------------|-14-------15-------------------|
|-------------------------------|-------------------------------|
|-------------------------------|-------------------------------|

Verse
 Gtr1                         x3
|-------------------------------|-------------------------|
|-------------------------------|-------------------------|
|-------4-----------4-----------|-------------------------|
|-2-----4-----3-----4-----4/5-4-|-------4-4-4-------4/5-4-|
|-2-----2-----3-----2-----2/3-2-|-2-2-2-2-2-2-3-3-3-2/3-2-|
|-0-0-0---0-0-1-0-0---0-0-------|-0-0-0-------1-1-1-------|
|   pm.   pm.   pm.   pm.       | pm...............       |
|                               |                         |
|Gtr2                         x3|                         |
|-------------------------------|-------------------------|
|-------------------------------|-------------------------|
|-------------------------------|-------------------------|
|-2-----------3-----------4h5-4-|-------4-4-4-------4/5-4-|
|-------2-----------3-----------|-2-2-2-2-2-2-3-3-3-2/3-2-|
|---0-0---0-0---0-0---0-0-------|-0-0-0-------1-1-1-------|
    pm.   pm.   pm.   pm.         pm...............   



                                                              x2
|-------------------------------|-------------------------------|
|-------------------------------|-------------------------------|
|-------4-----------4-----------|-------4-----------4-----------|
|-2-----4-----3-----4-----4/5-4-|-2-----4-----3-----4-----4/5-4-|
|-2-----2-----3-----2-----2/3-2-|-2-----2-----3-----2-----2/3-2-|
|-0-0-0---0-0-1-0-0---0-0-------|-0-0-0---0-0-1-0-0---0-0-------|
|   pm.   pm.   pm.   pm.       |   pm.   pm.   pm.   pm.       |
|                               |                               |
|Gtr2                           |                               |
|-------------------------------|-------------------------------|
|-------------------------------|-------------------------------|
|-------------------------------|-------------------------------|
|-2-----------3-----------4h5-4-|-2-----------3-----------4h5-4-|
|-------2-----------3-----------|-------2-----------3-----------|
|---0-0---0-0---0-0---0-0-------|---0-0---0-0---0-0---0-0-------|
    pm.   pm.   pm.   pm.           pm.   pm.   pm.   pm.       




   
Chorus
 Gtr1
|-----0---------------------------------------|
|-----0---------------------------------------|
|--------4--4--4-4-4---7--7-7--6--6-6--6/7-6--|
|-2------4--4--4-4-4---x--x-x--x--x-x--x---x--|
|-2------2--2--2-2-2---5--5-5--4--4-4--4/5-4--|
|-0-------------------------------------------|
|                                             |
|Gtr2                                         |
|-----0---------------------------------------|
|-----0---------------------------------------|
|--------4--4--4-4-4--------------------------|
|-2------4--4--4-4-4--------------------------|
|-2------2--2--2-2-2--------------------------|
|-0--------------------7--7-7--5--5-5--5h7-5--|


 Gtr1&2
|-----0---------------------------------------|
|-----0---------------------------------------|
|--------4--4--4-4-4---7--7-7--7--8-8--8-8-8--|
|-2------4--4--4-4-4---7--7-7--7--8-8--8-8-8--|
|-2------2--2--2-2-2---5--5-5--5--6-6--6-6-6--|
|-0-------------------------------------------|


|-------------------------------|-------------------------------|
|-------------------------------|-------------------------------|
|-----16--------16---16b(17)-16-|-----16--------16---16b(17)-16-|
|-14-------15-------------------|-14-------15-------------------|
|-------------------------------|-------------------------------|
|-------------------------------|-------------------------------|


Verse 2

Chorus



|---------------------------------|
|---------------------------------|
|---------------------------------|
|-7-7-7-7-7-7-7-7-8-8-8-8-8-8-8-8-|
|-5-5-5-5-5-5-5-5-6-6-6-6-6-6-6-6-|
|---------------------------------|
  pm..............................


|---------------|---------------|---------------|---------------|
|---------------|---------------|---------------|---------------|
|---------------|---------------|---------------|---------------|
|-6-----2--3-4--|-6-----2--3-4--|-6-----2--3-4--|-4-----6--4-4--|
|-6-----2--3-4--|-6-----2--3-4--|-6-----2--3-4--|-2-----6--2-2--|
|-4-----0--1-2--|-4-----0--1-2--|-4-----0--1-2--|-------4-------|


|---------------|---------------|---------------|---------------|
|---------------|---------------|---------------|---------------|
|---------------|---------------|---------------|---------------|
|-6-----2--3-4--|-6-----2--3-4--|-6-----2--3-4--|-4-------------|
|-6-----2--3-4--|-6-----2--3-4--|-6-----2--3-4--|-2-----6-------|
|-4-----0--1-2--|-4-----0--1-2--|-4-----0--1-2--|-------4-------|


                                                 x4
|------------------------------17------------------|
|----------------------16--15----------16----------|
|--------------15--14--------------14----------15--|
|------14--13------------------------------13------|
|-12-----------------------------------------------|
|--------------------------------------------------|

                                                              x2
|-------------------------------|-------------------------------|
|-----17--------17---17b(18)-17-|-----17--------17---17b(18)-17-|
|-14-------15-------------------|-14-------15-------------------|
|-------------------------------|-------------------------------|
|-------------------------------|-------------------------------|
|-------------------------------|-------------------------------|


                                                      x2
|---------------------------|---------------------------|---------------|
|---------------------------|---------------------------|---------------|
|------9---------9----------|------9---------9----------|---------------|
|-7----9----8----9---9/10-9-|-7----9----8----9---9/10-9-|-2-------------|
|-7----7----8----7---7/8--7-|-7----7----8----7---7/8--7-|-2-------------|
|-5---------6---------------|-5---------6---------------|-0-------------|



|-------------------------------|-------------------------|
|-------------------------------|-------------------------|
|-------------------------------|-------------------------|
|-------------------------------|-------4-4-4-------4/5-4-|
|-------------------------------|-2-2-2-2-2-2-3-3-3-2/3-2-|
|-------------------------------|-0-0-0-------1-1-1-------|
                                  pm............... 

                              x3
|-------------------------------|-------------------------|
|-------------------------------|-------------------------|
|-------4-----------4-----------|-------------------------|
|-2-----4-----3-----4-----4/5-4-|-------4-----------4/5-4-|
|-2-----2-----3-----2-----2/3-2-|-2-----2-----3-----2/3-2-|
|-0-0-0---0-0-1-0-0---0-0-------|-0-----------1-----------|
    pm.   pm.   pm.   pm.         pm...............     

                                                              x2
|-------------------------------|-------------------------------|
|-------------------------------|-------------------------------|
|-------4-----------4-----------|-------4-----------4-----------|
|-2-----4-----3-----4-----4/5-4-|-2-----4-----3-----4-----4/5-4-|
|-2-----2-----3-----2-----2/3-2-|-2-----2-----3-----2-----2/3-2-|
|-0-0-0---0-0-1-0-0---0-0-------|-0-0-0---0-0-1-0-0---0-0-------|
    pm.   pm.   pm.   pm.           pm.   pm.   pm.   pm.       

 Chorus


End
|--------------------------|
|--------------------------|
|------4-------------------|
|-2----4----3--------------|
|-2----2----3--------------|
|-0---------1--------------|
petlica
 
Posty: 100
Dołączył(a): 5 kwi 2009, o 10:35
Lokalizacja: Krk

Powrót do Acidofilia

Kto przegląda forum

Użytkownicy przeglądający ten dział: Brak zidentyfikowanych użytkowników i 1 gość