Drunk Eyes

Drunk Eyes

Postprzez petlica » 1 lut 2014, o 21:55

Kod: Zaznacz cały
Acid Drinkers
Acidofilia
Drunk Eyes

Strój standard C


 Intro Riff A                                                       x2
|----------------------------------|----------------------------------|
|----------------------------------|----------------------------------|
|----------------------------------|----------------------------------|
|----------------------------------|----------------------------------|
|-3-3-4-5-2-2----------------------|-3-3-4-5-2-2----------------------|
|-1-1-2-3-0-0--1-1-1--2-2-2-3--0-0-|-1-1-2-3-0-0--1-1-1--2-2-2-3--0-0-|
  pm..................................................................


 Riff B
|------------------------|--------------------------|
|------------------------|--------------------------|
|------------------------|--------------3--4--4-5-5-|
|------------------------|-3-3--4--5--3-------------|
|------------1--2--2-3-3-|--------------------------|
|-1--2--3--1-------------|--------------------------|

 Verse - Riff C                               x2
|-----------------------|-----------------------|
|-----------------------|-----------------------|
|-----------------------|-----------------------|
|-----------------------|-----------------------|
|--------2-2-2----------|--------2-2-2----------|
|-4-4-4---------4-3---3-|-4-4-4---------4-3---3-|
  pm............................................

 Riff D
|-------------------------------------|-------------------------------------|
|-------------------------------------|-------------------------------------|
|--------------------------------9----|--------------------------------9----|
|--------------------------------9----|--------------------------------9----|
|-9-8-9-8-9-8--------8-9-8-9-8-9-7----|-9-8-9-8-9-8--------8-9-8-9-8-9-7----|
|-7-6-7-6-7-6--------6-7-6-7-6-7------|-7-6-7-6-7-6--------6-7-6-7-6-7------|

Riff C

Riff D

Riff C

 Riff 2D
|-------------------------------|-------------------------------|
|-------------------------------|-------------------------------|
|--------------------------9-9--|--------------------------9-9--|
|--------------------------9-9--|--------------------------9-9--|
|-9--8-9-8-9-8-9-8-9-8-9-8-7-7--|-9--8-9-8-9-8-9-8-9-8-9-8-7-7--|
|-7--6-7-6-7-6-7-6-7-6-7-6------|-7--6-7-6-7-6-7-6-7-6-7-6------|
     pm...................          pm...................

 Chorus
|-------------------------|----------------------------|
|-------------------------|----------------------------|
|-------------------------|----------------------------|
|-------------------------|----------------------------|
|-11---11---11---11--11---|-12----12----12---12---12---|
|--9-0--9-0--9-0--9-0-9-0-|-10-0--10-0--10-0-10-0-10-0-|


|-----------------------|-----------------------|
|-----------------------|-----------------------|
|-----------------------|-----------------------|
|-----------------------|-----------------------|
|-6----6----6---6---6---|-5----5----5---5---5---|
|-4-0--4-0--4-0-4-0-4-0-|-3-0--3-0--3-0-3-0-3-0-|

 
Riff B - 2x

Verse - Riff 2C
|-------------------|-------------------|------------------|------------------|
|-------------------|-------------------|------------------|------------------|
|-------------------|-------------------|------------------|------------------|
|-6------9-----6-5--|-6------9-----6-5--|-6------9----6-5--|-6------9----6-5--|
|-6------9-----6-5--|-6------9-----6-5--|-6------9----6-5--|-6------9----6-5--|
|-4------7-----4-3--|-4------7-----4-3--|-4------7----4-3--|-4------7----4-3--|

 Riff 3D
|-------------------------------------|-------------------------------------|
|-------------------------------------|-------------------------------------|
|--------------------------------9----|--------------------------------9----|
|--------------------------------9----|--------------------------------9----|
|-9-8-9-8-9-8----------9-8-9-8-9-7----|-9-8-9-8-9-8----------9-8-9-8-9-7----|
|-7-6-7-6-7-6----------7-6-7-6-7------|-7-6-7-6-7-6----------7-6-7-6-7------|
  pm.......            pm.......        pm.......            pm.......

Riff 2C

Riff 3D

Riff 2C

 Riff 2D
|------------------------------|------------------------------|
|------------------------------|------------------------------|
|--------------------------9---|--------------------------9---|
|--------------------------9---|--------------------------9---|
|-9--8-9-8-9-8-9-8-9-8-9-8-7---|-9--8-9-8-9-8-9-8-9-8-9-8-7---|
|-7--6-7-6-7-6-7-6-7-6-7-6-----|-7--6-7-6-7-6-7-6-7-6-7-6-----|
     pm...................          pm...................

 Chorus - 2x

|----------------------------------|-----------------------------------|
|----------------------------------|-----------------------------------|
|----------------------------------|-----------------------------------|
|----------------------------------|-----------------------------------|
|-11-------------------------------|-12--------------------------------|
|--9---9-9-9-9-9-9-9-9-9-9-9-9-9-9-|-10---1010101010101010101010101010-|
      pm..........................        pm..............PH..........

|----------------------------------|-----------------------------------|
|----------------------------------|-----------------------------------|
|----------------------------------|-----------------------------------|
|----------------------------------|-----------------------------------|
|--6-------------------------------|--5--------------------------------|
|--4---4-4-4-4-4-4-4-4-4-4-4-4-4-4-|--3----3-3-3-3-3-3-3-3-3-3-3-3-3-3-|
      pm..........................        pm..............PH..........


                         x2                         x2
|--------------------------|--------------------------|
|--------------------------|--------------------------|
|--------------------------|--------------------------|
|-----/11-11-------/11-11--|-----/12-12-------/12-12--|
|-------x--x---------x--x--|-------x--x---------x--x--|
|-0-0--/9--9---0-0---9--9--|-0-0-/10-10---0-0-/10-10--|

                         x2                         x2
|--------------------------|--------------------------|
|--------------------------|--------------------------|
|--------------------------|--------------------------|
|------/6--6--------/6--6--|------/5--5--------/5--5--|
|-------x--x---------x--x--|-------x--x---------x--x--|
|-0-0--/4--4---0-0--/4--4--|-0-0--/3--3---0-0---3--3--|


Riff A


Solo Background
|-----------------------------|
|-----------------------------|
|-----------------------------|
|-5----/----------2---/-6---/-|
|-5---/-----------2--/--6--/--|
|-3--/------------0-/---4-/---|

Solo

|--------------------------------------------------|
|--------------------------------------------------|
|--------------------------------------------------|
|-15-16-17-15-16-17-15-16-17-15-16-17-15-16-17-15--|
|--------------------------------------------------|
|--------------------------------------------------|


|--------------------------------------------------|
|--------------------------------------------------|
|----15-16----15-16----15-16----15-16----15-16-----|
|-17-------17-------17-------17-------17-------17--|
|--------------------------------------------------|
|--------------------------------------------------|


|--------------------------------------------------|
|--------------------------------------------------|
|--------------------------------------------------|
|-15-16-17-15-16-17-15-16-17-15-16-17-15-16-17-15--|
|--------------------------------------------------|
|--------------------------------------------------|


|--------------------------------------------------|
|--------------------------------------------------|
|----15-16----15-16----15-16----15-16----15-16-----|
|-17-------17-------17-------17-------17-------17--|
|--------------------------------------------------|
|--------------------------------------------------|


|--------------------------------------------------|
|--------------------------------------------------|
|--------------------------------------------------|
|----------15-16-17-------15----16----17-----------|
|-15-16-17----------15-16--------------------------|
|--------------------------------------------------|


|--------------------------------------------------|
|--------------------------------------------------|
|--------------------------------------------------|
|----------15-16-17-------15----16----17-----------|
|-15-16-17----------15-16--------------------------|
|--------------------------------------------------|


|--------------------------------------------------|
|----------18-19-20-------18----19----20-----------|
|-17-18-19----------17-18--------------------------|
|--------------------------------------------------|
|--------------------------------------------------|
|--------------------------------------------------|


|--------------------------------------------------|
|----------18-19-20-------18----19----20-----------|
|-17-18-19----------17-18-----------------17-18-19-|
|--------------------------------------------------|
|--------------------------------------------------|
|--------------------------------------------------|


                                                                    x2
|----------------------------------|----------------------------------|
|----------------------------------|----------------------------------|
|----------------------------------|----------------------------------|
|-15--16--17--15-16--17--15-16--17-|-15--16--17--15-16--17--15-16--17-|
|----------------------------------|----------------------------------|
|----------------------------------|----------------------------------|

                                                                       x2
|----------------------------------|--------------------18--19-19--20-20-|
|----------------------------------|-18-18--19--20--18-------------------|
|----------------15--16--16-17--17-|-------------------------------------|
|-15--16--17--15-------------------|-------------------------------------|
|----------------------------------|-------------------------------------|
|----------------------------------|-------------------------------------|


|-------------------------|-------------------------|
|-------------------------|-------------------------|
|-------------------------|-------------------------|
|-3--4--5--3-4--5--3-4--5-|-3--4--5--3-4--5--3-4--5-|
|-3--4--5--3-4--5--3-4--5-|-3--4--5--3-4--5--3-4--5-|
|-1--2--3--1-2--3--1-2--3-|-1--2--3--1-2--3--1-2--3-|


 Chorus - 2x

|--------------|--------------|--------------|--------------|
|--------------|--------------|--------------|--------------|
|--------------|--------------|--------------|--------------|
|--------------|--------------|--------------|--------------|
|-11-----------|-12-----------|--6-----------|--5-----------|
|--9-----------|-10-----------|--4-----------|--3-----------|


|--------------|--------------|--------------|--------------|
|--------------|--------------|--------------|--------------|
|--------------|--------------|--------------|--------------|
|-11----/------|-12----/------|--6----/------|--------------|
|--x---/-------|--x---/-------|--x---/-------|--5-----------|
|--9--/--------|-10--/--------|--4--/--------|--3-----------|
petlica
 
Posty: 100
Dołączył(a): 5 kwi 2009, o 10:35
Lokalizacja: Krk

Powrót do Acidofilia

Kto przegląda forum

Użytkownicy przeglądający ten dział: Brak zidentyfikowanych użytkowników i 1 gość