Hot Stuff

Hot Stuff

Postprzez petlica » 1 lip 2011, o 14:15

[size=50]
Kod: Zaznacz cały
dropped C

Riff A

D|--------------------------|---------------------|
A|--------------------------|---------------------|
F|--------------------------|---------------------|
C|--------------------------|------------5b(6)----|
G|-0-0-0--0--0--0--0--0--0--|--0-0-0--0--x--------|
C|-0-0-0--0--0--0--0--0--0--|--0-0-0--0--5b(6)----|



Riff B

|-----------------|-----------------|------------------|------------------------|
|-----------------|-----------------|------------------|------------------------|
|-----------------|-----------------|------------------|------------------------|
|-----------------|-----------------|------------------|------------------------|
|-0-----------3~--|-5---3-5-3-------|------------------|-----------------x-x-x--|
|-0---2-3-5-6-----|-----------5-3~--|-5---3-5-3-5-3~---|-5b(6)r(5)-3-0---x-x-x--|


Riff C

|-------------------|--------------------|-------------------|----------------------------------|
|-------------------|--------------------|-------------------|----------------------------------|
|-------------------|--------------------|-------------------|----------------------------------|
|-------------------|--------------------|-------------------|----------------------------------|
|-5------------0----|-5-------------0----|-5-------------0---|-5------------7-------------------|
|-5--5-5-5-5-5-0----|-5---5-5-5-5-5-0----|-5---5-5-5-5-5-0---|-5--5-5-5-5-5-7---7-7-7-7-7-7-7-7-|


Riff D
                                                              x2
|-------------------------------|-------------------------------|
|-------------------------------|-------------------------------|
|-------------------------------|-------------------------------|
|-------------------------------|-------------------------------|
|---------------5--------5--3---|---------------5--------5--3---|
|-0-0-0-0-0-0-0-5--------5--3---|-0-0-0-0-0-0-0-5--------5--3---|
[/size]

Pozdr
petlica
petlica
 
Posty: 100
Dołączył(a): 5 kwi 2009, o 10:35
Lokalizacja: Krk

Powrót do Fishdick Zwei

Kto przegląda forum

Użytkownicy przeglądający ten dział: Brak zidentyfikowanych użytkowników i 1 gość