Kill the Gringo

Kill the Gringo

Postprzez petlica » 22 sty 2014, o 06:08

strój drop-C, czyli całość 1 ton w dół i najgrubszą jeszcze 1 ton w dół

Kod: Zaznacz cały
Kill the Gringo

Intro
 Gtr1                                                           x3
|-----------------------------------------------------------------|
|-----------------------------------------------------------------|
|-3-1-2---1-----------------------------------------------1-1-1-2-|
|-------3---2-3-1-2---1-----------------------------1-2-3---------|
|-------------------3---2-3-1-2---1-----------1-2-3---------------|
|-------------------------------3---2-3-1-2-3---------------------|


 Gtr1
|---------------------------------------------------------------------|
|---------------------------------------------------------------------|
|-3-1-2---1-----------------------------------------------1h2p1h2p1h2-|
|-------3---2-3-1-2---1-----------------------------1-2-3-------------|
|-------------------3---2-3-1-2---1-----------1-2-3-------------------|
|-------------------------------3---2-3-1-2-3-------------------------|


 Gtr2
|---------------------------------------------------------------------------|
|---------------------------------------------------------------------------|
|-10-8-9----8-------------------------------------------------------8-8-8-9-|
|--------10---9-10-8-9----8----------------------------------8-9-10---------|
|----------------------10---9-10-8-9----8-------------8-9-10----------------|
|------------------------------------10---9-10-8-9-10-----------------------|

 Gtr2
|-------------------------------------------------------------------------------|
|-------------------------------------------------------------------------------|
|-10-8-9----8-------------------------------------------------------8h9p8h9p8h9-|
|--------10---9-10-8-9----8----------------------------------8-9-10-------------|
|----------------------10---9-10-8-9----8-------------8-9-10--------------------|
|------------------------------------10---9-10-8-9-10---------------------------|


Verse
                                      x3
|---------------------------------------|
|---------------------------------------|
|---------------------------------------|
|---------------------------------------|
|---------------------------------------|
|-3-0-0-0-2-0-0-0-1-0-0-0-3-0-2-0-1-0-0-|
    pm...   pm...   pm...  pm  pm   pm..


|------------------------------------------------|
|------------------------------------------------|
|------------------------------------------------|
|------------------------------------------------|
|------------------------------------------------|
|-0-(3)/15--0--(3)/15-0--(3)/15-0--(3)/15----0---|


Pre-Ref
                                         x3
|-------------------------------------------|
|-------------------------------------------|
|-------------------------------------------|
|-6-------6-------6-------------------------|
|-6-------6-------6-------8-8-8-8-10-10-11/-|
|-6-6-6-6-6-6-6-6-6-6-6-6-8-8-8-8-10-10-11/-|
   pm....  pm....   pm...

|-----------------------------------------|
|-----------------------------------------|
|-----------------------------------------|
|-6-6-6-6-9-9-9-9-10-10-10-10-11-11-11-11-|
|-6-6-6-6-9-9-9-9-10-10-10-10-11-11-11-11-|
|-6-6-6-6-9-9-9-9-10-10-10-10-11-11-11-11-|

Ref
                        x3
|-------------------------|-------------------------|
|-------------------------|-------------------------|
|-------------------------|-------------------------|
|-0---0----------3--4--5--|-0---0-----------3--2--1-|
|-0---0----------3--4--5--|-0---0-----------3--2--1-|
|-0---0-0-0-0-0--3--4--5--|-0---0-0-0-0-0---3--2--1-|
       pm......                   pm..... 


                                        x3
|-----------------------------------------|
|-----------------------------------------|
|-----------------------------------------|
|-----------------------------------------|
|-----------------------------------------|
|-3-0-0-0-2-0-0-0-1-0-0-0-3-0-2-0-1-0-0-0-|
    pm...   pm...   pm...  pm  pm   pm...

|-----------------------------------------|
|-----------------------------------------|
|-----------------------------------------|
|-6-6-6-6-9-9-9-9-10-10-10-10-11-11-11-11-|
|-6-6-6-6-9-9-9-9-10-10-10-10-11-11-11-11-|
|-6-6-6-6-9-9-9-9-10-10-10-10-11-11-11-11-|


Verse 2

Pre-Ref

Ref


Bridge

|-------------------------------------------------------------------|
|-------------------------------------------------------------------|
|-------------------------------------------------------------------|
|-------------------------------------------------------------------|
|-------------------------------------------------------------------|
|-8--7-7-7-7-7-7-8--7-7-7-7-7-7-8--7-7-7-7-7-7-8--10-10-10-10-10-10-|
  pm................................................................

|-------------------------------------------------------------------|
|-------------------------------------------------------------------|
|-------------------------------------------------------------------|
|-------------------------------------------------------------------|
|-------------------------------------------------------------------|
|-8--7-7-7-7-7-7-8--7-7-7-7-7-7---11-11-11--10-10-10--8-8-8--7-7-7--|
  pm................................................................

|--------------------------------------------------|
|--------------------------------------------------|
|--------------------------------------------------|
|-8--7--7--7--8--7--7--7--8--7--7--7--8--8--10--10-|
|-8--7--7--7--8--7--7--7--8--7--7--7--8--8--10--10-|
|-8--7--7--7--8--7--7--7--8--7--7--7--8--8--10--10-|


|-----------------------------------------------------------|
|-----------------------------------------------------------|
|-----------------------------------------------------------|
|-8--7--7--7--8--7--7--7------------------------------------|
|-8--7--7--7--8--7--7--7------------------------------------|
|-8--7--7--7--8--7--7--7---11-11-11--10-10-10--8-8-8--7-7-7-|
                          pm...............................

Solo Background
                                                x4
|-------------------------------------------------|
|-------------------------------------------------|
|-------------------------------------------------|
|-------------------------------------------------|
|-------------------------------------------------|
|-1-0-0-0-0-0-1-0-0-0-0-0-1-0-0-0-0-0-1-1-1-3-3-3-|
  pm..............................................

                                                x4
|-------------------------------------------------|
|-------------------------------------------------|
|-------------------------------------------------|
|-------------------------------------------------|
|-------------------------------------------------|
|-3-2-2-2-2-2-3-2-2-2-2-2-3-2-2-2-2-2-3-3-3-5-5-5-|
  pm..............................................


Pre-Ref x2

Ref  x2

Ref_2
                        x3
|-------------------------|-------------------------|
|-------------------------|-------------------------|
|-------------------------|-------------------------|
|-0---0----------3--4--5--|-0---0-----------3--2--1-|
|-0---0----------3--4--5--|-0---0-----------3--2--1-|
|-0---0----------3--4--5--|-0---0-----------3--2--1-|


 End
|---------------------------------------|
|---------------------------------------|
|---------------------------------------|
|---------------------------------------|
|---------------------------------------|
|-3-0-0-0-2-0-0-0-1-0-0-0-3-0-2-0-1-0-0-|
    pm...   pm...   pm...  pm  pm   pm..



pozdr
petlica
petlica
 
Posty: 100
Dołączył(a): 5 kwi 2009, o 10:35
Lokalizacja: Krk

Powrót do La Part du Diable

Kto przegląda forum

Użytkownicy przeglądający ten dział: Brak zidentyfikowanych użytkowników i 1 gość